ISO-10303-21;
HEADER;
/* Generated by software containing ST-Developer
 * from STEP Tools, Inc. (www.steptools.com) 
 */

FILE_DESCRIPTION(
/* description */ ('DN 110 CORRUGATED',
'CAx-IF Rec.Pracs.---Representation and Presentation of Product Manufa
cturing Information (PMI)---4.0---2014-10-13'),
/* implementation_level */ '2;1');

FILE_NAME(
/* name */ 'ADAPTER KOS AD DN 110 COR.stp',
/* time_stamp */ '2025-10-07T09:56:49+02:00',
/* author */ ('se-jorlan'),
/* organization */ (''),
/* preprocessor_version */ 'ST-DEVELOPER v20',
/* originating_system */ 'Autodesk Inventor 2023',
/* authorisation */ '');

FILE_SCHEMA (('AP242_MANAGED_MODEL_BASED_3D_ENGINEERING_MIM_LF { 1 0 10303 442 1 1 4 }'));
ENDSEC;

DATA;
#10=MECHANICAL_DESIGN_AND_DRAUGHTING_RELATIONSHIP('[Primary]','',#16,#17);
#11=MAPPED_ITEM('',#13,#198);
#12=MAPPED_ITEM('',#14,#199);
#13=REPRESENTATION_MAP(#198,#15);
#14=REPRESENTATION_MAP(#199,#308);
#15=ADVANCED_BREP_SHAPE_REPRESENTATION('[Primary]',(#24),#300);
#16=DRAUGHTING_MODEL('[Primary]',(#11,#19),#300);
#17=DRAUGHTING_MODEL('',(#12,#199),#300);
#18=MECHANICAL_DESIGN_GEOMETRIC_PRESENTATION_REPRESENTATION('',(#22),#301);
#19=CAMERA_MODEL_D3('[Primary]',#196,#20);
#20=VIEW_VOLUME(.PARALLEL.,#295,418.543230045559,0.,.F.,0.,.F.,.F.,#21);
#21=PLANAR_BOX('view window',533.689542301825,210.597649050375,#197);
#22=STYLED_ITEM('',(#317),#24);
#23=STYLED_ITEM('',(#318),#12);
#24=MANIFOLD_SOLID_BREP('Solid1',#153);
#25=FACE_BOUND('',#49,.T.);
#26=FACE_BOUND('',#52,.T.);
#27=FACE_BOUND('',#55,.T.);
#28=FACE_BOUND('',#59,.T.);
#29=PLANE('',#181);
#30=PLANE('',#185);
#31=PLANE('',#189);
#32=PLANE('',#195);
#33=CYLINDRICAL_SURFACE('',#179,60.5);
#34=CYLINDRICAL_SURFACE('',#183,50.);
#35=CYLINDRICAL_SURFACE('',#187,46.);
#36=FACE_OUTER_BOUND('',#46,.T.);
#37=FACE_OUTER_BOUND('',#47,.T.);
#38=FACE_OUTER_BOUND('',#48,.T.);
#39=FACE_OUTER_BOUND('',#50,.T.);
#40=FACE_OUTER_BOUND('',#51,.T.);
#41=FACE_OUTER_BOUND('',#53,.T.);
#42=FACE_OUTER_BOUND('',#54,.T.);
#43=FACE_OUTER_BOUND('',#56,.T.);
#44=FACE_OUTER_BOUND('',#57,.T.);
#45=FACE_OUTER_BOUND('',#58,.T.);
#46=EDGE_LOOP('',(#108,#109,#110,#111));
#47=EDGE_LOOP('',(#112,#113,#114,#115));
#48=EDGE_LOOP('',(#116));
#49=EDGE_LOOP('',(#117));
#50=EDGE_LOOP('',(#118,#119,#120,#121));
#51=EDGE_LOOP('',(#122));
#52=EDGE_LOOP('',(#123));
#53=EDGE_LOOP('',(#124,#125,#126,#127));
#54=EDGE_LOOP('',(#128));
#55=EDGE_LOOP('',(#129));
#56=EDGE_LOOP('',(#130,#131,#132,#133));
#57=EDGE_LOOP('',(#134,#135,#136,#137));
#58=EDGE_LOOP('',(#138));
#59=EDGE_LOOP('',(#139));
#60=LINE('',#261,#66);
#61=LINE('',#266,#67);
#62=LINE('',#273,#68);
#63=LINE('',#279,#69);
#64=LINE('',#286,#70);
#65=LINE('',#290,#71);
#66=VECTOR('',#206,61.5003046560878);
#67=VECTOR('',#213,60.5);
#68=VECTOR('',#222,50.);
#69=VECTOR('',#229,46.);
#70=VECTOR('',#238,55.7924605582316);
#71=VECTOR('',#243,57.4996953439122);
#72=CIRCLE('',#177,60.5);
#73=CIRCLE('',#178,62.5006093121756);
#74=CIRCLE('',#180,60.5);
#75=CIRCLE('',#182,50.);
#76=CIRCLE('',#184,50.);
#77=CIRCLE('',#186,46.);
#78=CIRCLE('',#188,46.);
#79=CIRCLE('',#190,55.0855304286388);
#80=CIRCLE('',#192,56.4993906878244);
#81=CIRCLE('',#194,58.5);
#82=VERTEX_POINT('',#258);
#83=VERTEX_POINT('',#260);
#84=VERTEX_POINT('',#264);
#85=VERTEX_POINT('',#268);
#86=VERTEX_POINT('',#271);
#87=VERTEX_POINT('',#275);
#88=VERTEX_POINT('',#278);
#89=VERTEX_POINT('',#282);
#90=VERTEX_POINT('',#285);
#91=VERTEX_POINT('',#289);
#92=EDGE_CURVE('',#82,#82,#72,.T.);
#93=EDGE_CURVE('',#82,#83,#60,.T.);
#94=EDGE_CURVE('',#83,#83,#73,.T.);
#95=EDGE_CURVE('',#84,#84,#74,.T.);
#96=EDGE_CURVE('',#84,#82,#61,.T.);
#97=EDGE_CURVE('',#85,#85,#75,.T.);
#98=EDGE_CURVE('',#86,#86,#76,.T.);
#99=EDGE_CURVE('',#86,#85,#62,.T.);
#100=EDGE_CURVE('',#87,#87,#77,.T.);
#101=EDGE_CURVE('',#87,#88,#63,.T.);
#102=EDGE_CURVE('',#88,#88,#78,.T.);
#103=EDGE_CURVE('',#89,#89,#79,.T.);
#104=EDGE_CURVE('',#89,#90,#64,.T.);
#105=EDGE_CURVE('',#90,#90,#80,.T.);
#106=EDGE_CURVE('',#90,#91,#65,.T.);
#107=EDGE_CURVE('',#91,#91,#81,.T.);
#108=ORIENTED_EDGE('',*,*,#92,.F.);
#109=ORIENTED_EDGE('',*,*,#93,.T.);
#110=ORIENTED_EDGE('',*,*,#94,.T.);
#111=ORIENTED_EDGE('',*,*,#93,.F.);
#112=ORIENTED_EDGE('',*,*,#95,.F.);
#113=ORIENTED_EDGE('',*,*,#96,.T.);
#114=ORIENTED_EDGE('',*,*,#92,.T.);
#115=ORIENTED_EDGE('',*,*,#96,.F.);
#116=ORIENTED_EDGE('',*,*,#95,.T.);
#117=ORIENTED_EDGE('',*,*,#97,.F.);
#118=ORIENTED_EDGE('',*,*,#98,.F.);
#119=ORIENTED_EDGE('',*,*,#99,.T.);
#120=ORIENTED_EDGE('',*,*,#97,.T.);
#121=ORIENTED_EDGE('',*,*,#99,.F.);
#122=ORIENTED_EDGE('',*,*,#98,.T.);
#123=ORIENTED_EDGE('',*,*,#100,.F.);
#124=ORIENTED_EDGE('',*,*,#100,.T.);
#125=ORIENTED_EDGE('',*,*,#101,.T.);
#126=ORIENTED_EDGE('',*,*,#102,.F.);
#127=ORIENTED_EDGE('',*,*,#101,.F.);
#128=ORIENTED_EDGE('',*,*,#103,.F.);
#129=ORIENTED_EDGE('',*,*,#102,.T.);
#130=ORIENTED_EDGE('',*,*,#103,.T.);
#131=ORIENTED_EDGE('',*,*,#104,.T.);
#132=ORIENTED_EDGE('',*,*,#105,.F.);
#133=ORIENTED_EDGE('',*,*,#104,.F.);
#134=ORIENTED_EDGE('',*,*,#105,.T.);
#135=ORIENTED_EDGE('',*,*,#106,.T.);
#136=ORIENTED_EDGE('',*,*,#107,.F.);
#137=ORIENTED_EDGE('',*,*,#106,.F.);
#138=ORIENTED_EDGE('',*,*,#94,.F.);
#139=ORIENTED_EDGE('',*,*,#107,.T.);
#140=CONICAL_SURFACE('',#176,61.5003046560878,0.132591443362145);
#141=CONICAL_SURFACE('',#191,55.7924605582316,0.0174532925199427);
#142=CONICAL_SURFACE('',#193,57.4996953439122,0.132591443362145);
#143=ADVANCED_FACE('',(#36),#140,.T.);
#144=ADVANCED_FACE('',(#37),#33,.T.);
#145=ADVANCED_FACE('',(#38,#25),#29,.T.);
#146=ADVANCED_FACE('',(#39),#34,.T.);
#147=ADVANCED_FACE('',(#40,#26),#30,.T.);
#148=ADVANCED_FACE('',(#41),#35,.F.);
#149=ADVANCED_FACE('',(#42,#27),#31,.T.);
#150=ADVANCED_FACE('',(#43),#141,.F.);
#151=ADVANCED_FACE('',(#44),#142,.F.);
#152=ADVANCED_FACE('',(#45,#28),#32,.T.);
#153=CLOSED_SHELL('',(#143,#144,#145,#146,#147,#148,#149,#150,#151,#152));
#154=DERIVED_UNIT_ELEMENT(#157,1.);
#155=DERIVED_UNIT_ELEMENT(#303,-3.);
#156=DIMENSIONAL_EXPONENTS(0.,1.,0.,0.,0.,0.,0.);
#157=(
CONVERSION_BASED_UNIT('gram',#159)
MASS_UNIT()
NAMED_UNIT(#156)
);
#158=(
MASS_UNIT()
NAMED_UNIT(*)
SI_UNIT(.KILO.,.GRAM.)
);
#159=MASS_MEASURE_WITH_UNIT(MASS_MEASURE(0.001),#158);
#160=DERIVED_UNIT((#154,#155));
#161=MEASURE_REPRESENTATION_ITEM('density measure',
POSITIVE_RATIO_MEASURE(1.06),#160);
#162=PROPERTY_DEFINITION_REPRESENTATION(#167,#164);
#163=PROPERTY_DEFINITION_REPRESENTATION(#168,#165);
#164=REPRESENTATION('material name',(#166),#300);
#165=REPRESENTATION('density',(#161),#300);
#166=DESCRIPTIVE_REPRESENTATION_ITEM('ABS Plastic','ABS Plastic');
#167=PROPERTY_DEFINITION('material property','material name',#310);
#168=PROPERTY_DEFINITION('material property','density of part',#310);
#169=DATE_TIME_ROLE('creation_date');
#170=APPLIED_DATE_AND_TIME_ASSIGNMENT(#171,#169,(#310));
#171=DATE_AND_TIME(#172,#173);
#172=CALENDAR_DATE(2023,25,8);
#173=LOCAL_TIME(0,0,0.,#174);
#174=COORDINATED_UNIVERSAL_TIME_OFFSET(0,0,.BEHIND.);
#175=AXIS2_PLACEMENT_3D('',#256,#200,#201);
#176=AXIS2_PLACEMENT_3D('',#257,#202,#203);
#177=AXIS2_PLACEMENT_3D('',#259,#204,#205);
#178=AXIS2_PLACEMENT_3D('',#262,#207,#208);
#179=AXIS2_PLACEMENT_3D('',#263,#209,#210);
#180=AXIS2_PLACEMENT_3D('',#265,#211,#212);
#181=AXIS2_PLACEMENT_3D('',#267,#214,#215);
#182=AXIS2_PLACEMENT_3D('',#269,#216,#217);
#183=AXIS2_PLACEMENT_3D('',#270,#218,#219);
#184=AXIS2_PLACEMENT_3D('',#272,#220,#221);
#185=AXIS2_PLACEMENT_3D('',#274,#223,#224);
#186=AXIS2_PLACEMENT_3D('',#276,#225,#226);
#187=AXIS2_PLACEMENT_3D('',#277,#227,#228);
#188=AXIS2_PLACEMENT_3D('',#280,#230,#231);
#189=AXIS2_PLACEMENT_3D('',#281,#232,#233);
#190=AXIS2_PLACEMENT_3D('',#283,#234,#235);
#191=AXIS2_PLACEMENT_3D('',#284,#236,#237);
#192=AXIS2_PLACEMENT_3D('',#287,#239,#240);
#193=AXIS2_PLACEMENT_3D('',#288,#241,#242);
#194=AXIS2_PLACEMENT_3D('',#291,#244,#245);
#195=AXIS2_PLACEMENT_3D('',#292,#246,#247);
#196=AXIS2_PLACEMENT_3D('view reference',#293,#248,#249);
#197=AXIS2_PLACEMENT_3D('view window',#294,#250,#251);
#198=AXIS2_PLACEMENT_3D('',#296,#252,#253);
#199=AXIS2_PLACEMENT_3D('',#297,#254,#255);
#200=DIRECTION('axis',(0.,0.,1.));
#201=DIRECTION('refdir',(1.,0.,0.));
#202=DIRECTION('center_axis',(-2.22044604925031E-16,0.,-1.));
#203=DIRECTION('ref_axis',(0.,-1.,0.));
#204=DIRECTION('center_axis',(2.22044604925031E-16,0.,1.));
#205=DIRECTION('ref_axis',(1.,0.,-2.22044604925031E-16));
#206=DIRECTION('',(-2.36285868667602E-16,0.132203280947387,-0.991222625098291));
#207=DIRECTION('center_axis',(2.22044604925031E-16,0.,1.));
#208=DIRECTION('ref_axis',(1.,0.,-2.22044604925031E-16));
#209=DIRECTION('center_axis',(2.22044604925031E-16,0.,1.));
#210=DIRECTION('ref_axis',(0.,-1.,0.));
#211=DIRECTION('center_axis',(2.22044604925031E-16,0.,1.));
#212=DIRECTION('ref_axis',(1.,0.,-2.22044604925031E-16));
#213=DIRECTION('',(-2.22044604925031E-16,0.,-1.));
#214=DIRECTION('center_axis',(2.22044604925031E-16,0.,1.));
#215=DIRECTION('ref_axis',(1.,0.,-2.22044604925031E-16));
#216=DIRECTION('center_axis',(2.22044604925031E-16,0.,1.));
#217=DIRECTION('ref_axis',(1.,0.,-2.22044604925031E-16));
#218=DIRECTION('center_axis',(2.22044604925031E-16,0.,1.));
#219=DIRECTION('ref_axis',(0.,-1.,0.));
#220=DIRECTION('center_axis',(2.22044604925031E-16,0.,1.));
#221=DIRECTION('ref_axis',(1.,0.,-2.22044604925031E-16));
#222=DIRECTION('',(-2.22044604925031E-16,0.,-1.));
#223=DIRECTION('center_axis',(2.22044604925031E-16,0.,1.));
#224=DIRECTION('ref_axis',(1.,0.,-2.22044604925031E-16));
#225=DIRECTION('center_axis',(2.22044604925031E-16,0.,1.));
#226=DIRECTION('ref_axis',(1.,0.,-2.22044604925031E-16));
#227=DIRECTION('center_axis',(2.22044604925031E-16,0.,1.));
#228=DIRECTION('ref_axis',(0.,-1.,0.));
#229=DIRECTION('',(-2.22044604925031E-16,0.,-1.));
#230=DIRECTION('center_axis',(2.22044604925031E-16,0.,1.));
#231=DIRECTION('ref_axis',(1.,0.,-2.22044604925031E-16));
#232=DIRECTION('center_axis',(-2.22044604925031E-16,0.,-1.));
#233=DIRECTION('ref_axis',(-1.,0.,2.22044604925031E-16));
#234=DIRECTION('center_axis',(2.22044604925031E-16,0.,1.));
#235=DIRECTION('ref_axis',(1.,0.,-2.22044604925031E-16));
#236=DIRECTION('center_axis',(-2.22044604925031E-16,0.,-1.));
#237=DIRECTION('ref_axis',(0.,-1.,0.));
#238=DIRECTION('',(-2.24148089824288E-16,0.0174524064372829,-0.999847695156391));
#239=DIRECTION('center_axis',(2.22044604925031E-16,0.,1.));
#240=DIRECTION('ref_axis',(1.,0.,-2.22044604925031E-16));
#241=DIRECTION('center_axis',(-2.22044604925031E-16,0.,-1.));
#242=DIRECTION('ref_axis',(0.,-1.,0.));
#243=DIRECTION('',(-2.36285868667602E-16,0.132203280947387,-0.991222625098291));
#244=DIRECTION('center_axis',(2.22044604925031E-16,0.,1.));
#245=DIRECTION('ref_axis',(1.,0.,-2.22044604925031E-16));
#246=DIRECTION('center_axis',(-2.22044604925031E-16,0.,-1.));
#247=DIRECTION('ref_axis',(-1.,0.,2.22044604925031E-16));
#248=DIRECTION('center_axis',(-0.577350269189626,0.577350269189626,-0.577350269189626));
#249=DIRECTION('ref_axis',(-0.707106781186548,-0.707106781186548,0.));
#250=DIRECTION('center_axis',(0.,0.,1.));
#251=DIRECTION('ref_axis',(1.,0.,0.));
#252=DIRECTION('center_axis',(0.,0.,1.));
#253=DIRECTION('ref_axis',(1.,0.,0.));
#254=DIRECTION('center_axis',(0.,0.,1.));
#255=DIRECTION('ref_axis',(1.,0.,0.));
#256=CARTESIAN_POINT('',(0.,0.,0.));
#257=CARTESIAN_POINT('Origin',(-1.96509475358653E-14,0.,-192.5));
#258=CARTESIAN_POINT('',(-2.5394726133769E-14,60.5,-185.));
#259=CARTESIAN_POINT('Origin',(-1.79856129989275E-14,0.,-185.));
#260=CARTESIAN_POINT('',(-2.89703991866945E-14,62.5006093121756,-200.));
#261=CARTESIAN_POINT('',(-2.71825626602318E-14,61.5003046560878,-192.5));
#262=CARTESIAN_POINT('Origin',(-2.1316282072803E-14,0.,-200.));
#263=CARTESIAN_POINT('Origin',(-8.5487172896137E-15,0.,-142.5));
#264=CARTESIAN_POINT('',(-6.52093471514136E-15,60.5,-100.));
#265=CARTESIAN_POINT('Origin',(8.88178419700126E-16,0.,-100.));
#266=CARTESIAN_POINT('',(-1.59578304244552E-14,60.5,-142.5));
#267=CARTESIAN_POINT('Origin',(8.88178419700125E-16,-50.,-100.));
#268=CARTESIAN_POINT('',(-5.23505557603664E-15,50.,-100.));
#269=CARTESIAN_POINT('Origin',(8.88178419700126E-16,0.,-100.));
#270=CARTESIAN_POINT('Origin',(2.22044604925031E-15,0.,-94.));
#271=CARTESIAN_POINT('',(-2.57052031693626E-15,50.,-88.));
#272=CARTESIAN_POINT('Origin',(3.5527136788005E-15,0.,-88.));
#273=CARTESIAN_POINT('',(-3.90278794648645E-15,50.,-94.));
#274=CARTESIAN_POINT('Origin',(3.5527136788005E-15,-46.,-88.));
#275=CARTESIAN_POINT('',(-2.08066159727732E-15,46.,-88.));
#276=CARTESIAN_POINT('Origin',(3.5527136788005E-15,0.,-88.));
#277=CARTESIAN_POINT('Origin',(1.77635683940025E-15,0.,-96.));
#278=CARTESIAN_POINT('',(-5.63337527607783E-15,46.,-104.));
#279=CARTESIAN_POINT('',(-3.85701843667757E-15,46.,-96.));
#280=CARTESIAN_POINT('Origin',(0.,0.,-104.));
#281=CARTESIAN_POINT('Origin',(-5.11056370745321E-31,-55.0855304286388,
-104.));
#282=CARTESIAN_POINT('',(-6.74603185187666E-15,55.0855304286388,-104.));
#283=CARTESIAN_POINT('Origin',(0.,0.,-104.));
#284=CARTESIAN_POINT('Origin',(-8.99280649946377E-15,0.,-144.5));
#285=CARTESIAN_POINT('',(-2.49047927948895E-14,56.4993906878244,-185.));
#286=CARTESIAN_POINT('',(-1.58254123233831E-14,55.7924605582316,-144.5));
#287=CARTESIAN_POINT('Origin',(-1.79856129989275E-14,0.,-185.));
#288=CARTESIAN_POINT('Origin',(-1.96509475358653E-14,0.,-192.5));
#289=CARTESIAN_POINT('',(-2.8480465847815E-14,58.5,-200.));
#290=CARTESIAN_POINT('',(-2.66926293213523E-14,57.4996953439122,-192.5));
#291=CARTESIAN_POINT('Origin',(-2.1316282072803E-14,0.,-200.));
#292=CARTESIAN_POINT('Origin',(-2.1316282072803E-14,-62.5006093121756,-200.));
#293=CARTESIAN_POINT('Origin',(241.646046534299,-241.646046534299,97.6460503489963));
#294=CARTESIAN_POINT('Origin',(-266.844771150913,-105.298824525187,418.543230045559));
#295=CARTESIAN_POINT('',(0.,0.,0.));
#296=CARTESIAN_POINT('Origin',(0.,0.,0.));
#297=CARTESIAN_POINT('Origin',(0.,0.,0.));
#298=UNCERTAINTY_MEASURE_WITH_UNIT(LENGTH_MEASURE(0.01),#302,
'DISTANCE_ACCURACY_VALUE',
'Maximum model space distance between geometric entities at asserted c
onnectivities');
#299=UNCERTAINTY_MEASURE_WITH_UNIT(LENGTH_MEASURE(0.01),#302,
'DISTANCE_ACCURACY_VALUE',
'Maximum model space distance between geometric entities at asserted c
onnectivities');
#300=(
GEOMETRIC_REPRESENTATION_CONTEXT(3)
GLOBAL_UNCERTAINTY_ASSIGNED_CONTEXT((#298))
GLOBAL_UNIT_ASSIGNED_CONTEXT((#302,#304,#305))
REPRESENTATION_CONTEXT('','3D')
);
#301=(
GEOMETRIC_REPRESENTATION_CONTEXT(3)
GLOBAL_UNCERTAINTY_ASSIGNED_CONTEXT((#299))
GLOBAL_UNIT_ASSIGNED_CONTEXT((#302,#304,#305))
REPRESENTATION_CONTEXT('','3D')
);
#302=(
LENGTH_UNIT()
NAMED_UNIT(*)
SI_UNIT(.MILLI.,.METRE.)
);
#303=(
LENGTH_UNIT()
NAMED_UNIT(*)
SI_UNIT(.CENTI.,.METRE.)
);
#304=(
NAMED_UNIT(*)
PLANE_ANGLE_UNIT()
SI_UNIT($,.RADIAN.)
);
#305=(
NAMED_UNIT(*)
SI_UNIT($,.STERADIAN.)
SOLID_ANGLE_UNIT()
);
#306=SHAPE_DEFINITION_REPRESENTATION(#307,#308);
#307=PRODUCT_DEFINITION_SHAPE('',$,#310);
#308=SHAPE_REPRESENTATION('',(#175,#24),#300);
#309=PRODUCT_DEFINITION_CONTEXT('part definition',#314,'design');
#310=PRODUCT_DEFINITION('ADAPTER KOS AD DN 110 COR',
'ADAPTER KOS AD DN 110 COR',#311,#309);
#311=PRODUCT_DEFINITION_FORMATION('E',$,#316);
#312=PRODUCT_RELATED_PRODUCT_CATEGORY('ADAPTER KOS AD DN 110 COR',
'ADAPTER KOS AD DN 110 COR',(#316));
#313=APPLICATION_PROTOCOL_DEFINITION('international standard',
'ap242_managed_model_based_3d_engineering',2011,#314);
#314=APPLICATION_CONTEXT('Managed model based 3d engineering');
#315=PRODUCT_CONTEXT('part definition',#314,'mechanical');
#316=PRODUCT('ADAPTER KOS AD DN 110 COR','ADAPTER KOS AD DN 110 COR',
'DN 110 CORRUGATED',(#315));
#317=PRESENTATION_STYLE_ASSIGNMENT((#319));
#318=PRESENTATION_STYLE_ASSIGNMENT((NULL_STYLE(.NULL.)));
#319=SURFACE_STYLE_USAGE(.BOTH.,#322);
#320=SURFACE_STYLE_RENDERING_WITH_PROPERTIES($,#326,(#321));
#321=SURFACE_STYLE_TRANSPARENT(0.);
#322=SURFACE_SIDE_STYLE('',(#323,#320));
#323=SURFACE_STYLE_FILL_AREA(#324);
#324=FILL_AREA_STYLE('',(#325));
#325=FILL_AREA_STYLE_COLOUR('',#326);
#326=COLOUR_RGB('',0.313725490196078,0.313725490196078,0.313725490196078);
ENDSEC;
END-ISO-10303-21;
